ISO-10303-21;
HEADER;
FILE_DESCRIPTION (( 'STEP AP214' ),
    '1' );
FILE_NAME ('BS1ISOK6373 FULLVAC.STEP',
    '2024-05-21T15:00:16',
    ( '' ),
    ( '' ),
    'SwSTEP 2.0',
    'SolidWorks 2017',
    '' );
FILE_SCHEMA (( 'AUTOMOTIVE_DESIGN' ));
ENDSEC;

DATA;
#1 = APPLICATION_PROTOCOL_DEFINITION ( 'draft international standard', 'automotive_design', 1998, #143 ) ;
#2 = DIRECTION ( 'NONE',  ( 0.0000000000000000000, 0.0000000000000000000, 1.000000000000000000 ) ) ;
#3 = VERTEX_POINT ( 'NONE', #93 ) ;
#4 = DIRECTION ( 'NONE',  ( 0.0000000000000000000, 1.000000000000000000, 0.0000000000000000000 ) ) ;
#5 = CIRCLE ( 'NONE', #193, 47.32352941176471000 ) ;
#6 = CLOSED_SHELL ( 'NONE', ( #66, #243, #121, #358, #299, #148, #188, #214, #10, #90, #298, #182, #210, #36, #151, #337 ) ) ;
#7 = AXIS2_PLACEMENT_3D ( 'NONE', #338, #13, #281 ) ;
#8 = DIRECTION ( 'NONE',  ( 0.0000000000000000000, 0.0000000000000000000, 1.000000000000000000 ) ) ;
#9 = EDGE_CURVE ( 'NONE', #333, #333, #72, .T. ) ;
#10 = ADVANCED_FACE ( 'NONE', ( #316, #370 ), #31, .T. ) ;
#11 = FACE_OUTER_BOUND ( 'NONE', #345, .T. ) ;
#12 = DIRECTION ( 'NONE',  ( 0.0000000000000000000, 0.0000000000000000000, -1.000000000000000000 ) ) ;
#13 = DIRECTION ( 'NONE',  ( 0.0000000000000000000, 1.000000000000000000, 0.0000000000000000000 ) ) ;
#14 = CARTESIAN_POINT ( 'NONE',  ( 0.0000000000000000000, -9.700000000000006400, 44.95000000000000300 ) ) ;
#15 = SURFACE_STYLE_FILL_AREA ( #37 ) ;
#16 = CIRCLE ( 'NONE', #270, 47.50000000000000000 ) ;
#17 = EDGE_CURVE ( 'NONE', #328, #328, #174, .T. ) ;
#18 = DIRECTION ( 'NONE',  ( 0.0000000000000000000, 0.0000000000000000000, -1.000000000000000000 ) ) ;
#19 = DIRECTION ( 'NONE',  ( 0.0000000000000000000, 0.0000000000000000000, 1.000000000000000000 ) ) ;
#20 = COLOUR_RGB ( '',0.7921568627450980000, 0.8196078431372548800, 0.9333333333333333500 ) ;
#21 = CONICAL_SURFACE ( 'NONE', #339, 46.69999999999999600, 0.7853981633974492800 ) ;
#22 = ORIENTED_EDGE ( 'NONE', *, *, #317, .F. ) ;
#23 = DIRECTION ( 'NONE',  ( 0.0000000000000000000, 1.000000000000000000, 0.0000000000000000000 ) ) ;
#24 = DIRECTION ( 'NONE',  ( 0.0000000000000000000, 1.000000000000000000, 0.0000000000000000000 ) ) ;
#25 = VERTEX_POINT ( 'NONE', #191 ) ;
#26 = EDGE_LOOP ( 'NONE', ( #123 ) ) ;
#27 = DIRECTION ( 'NONE',  ( 0.0000000000000000000, 0.0000000000000000000, 1.000000000000000000 ) ) ;
#28 = CARTESIAN_POINT ( 'NONE',  ( 0.0000000000000000000, 0.2999999999999895000, 0.0000000000000000000 ) ) ;
#29 = PLANE ( 'NONE',  #331 ) ;
#30 = CIRCLE ( 'NONE', #109, 47.50000000000000700 ) ;
#31 = TOROIDAL_SURFACE ( 'NONE', #187, 47.29999999999999700, 0.2000000000000043700 ) ;
#32 = FILL_AREA_STYLE_COLOUR ( '', #296 ) ;
#33 = DIRECTION ( 'NONE',  ( 0.0000000000000000000, 0.0000000000000000000, 1.000000000000000000 ) ) ;
#34 = ORIENTED_EDGE ( 'NONE', *, *, #9, .F. ) ;
#35 = EDGE_LOOP ( 'NONE', ( #73 ) ) ;
#36 = ADVANCED_FACE ( 'NONE', ( #259, #336 ), #346, .T. ) ;
#37 = FILL_AREA_STYLE ('',( #271 ) ) ;
#38 = EDGE_CURVE ( 'NONE', #314, #314, #179, .T. ) ;
#39 = DIRECTION ( 'NONE',  ( 0.0000000000000000000, -1.000000000000000000, -0.0000000000000000000 ) ) ;
#40 = DIRECTION ( 'NONE',  ( 0.0000000000000000000, 0.0000000000000000000, -1.000000000000000000 ) ) ;
#41 = EDGE_LOOP ( 'NONE', ( #297 ) ) ;
#42 =( NAMED_UNIT ( * ) SI_UNIT ( $, .STERADIAN. ) SOLID_ANGLE_UNIT ( ) );
#43 = CARTESIAN_POINT ( 'NONE',  ( 46.69999999999999600, -11.70000000000000800, 0.0000000000000000000 ) ) ;
#44 = PRESENTATION_STYLE_ASSIGNMENT (( #175 ) ) ;
#45 = EDGE_CURVE ( 'NONE', #147, #147, #207, .T. ) ;
#46 = FACE_OUTER_BOUND ( 'NONE', #97, .T. ) ;
#47 = CARTESIAN_POINT ( 'NONE',  ( 0.0000000000000000000, -9.700000000000001100, -36.60000000000000100 ) ) ;
#48 = EDGE_LOOP ( 'NONE', ( #308 ) ) ;
#49 = FACE_BOUND ( 'NONE', #35, .T. ) ;
#50 = CARTESIAN_POINT ( 'NONE',  ( 0.0000000000000000000, -11.70000000000000800, 0.0000000000000000000 ) ) ;
#51 = DIRECTION ( 'NONE',  ( -0.0000000000000000000, 1.000000000000000000, -0.0000000000000000000 ) ) ;
#52 = DIRECTION ( 'NONE',  ( 0.0000000000000000000, -0.0000000000000000000, 1.000000000000000000 ) ) ;
#53 = CARTESIAN_POINT ( 'NONE',  ( 0.0000000000000000000, 0.2999999999999895000, 0.0000000000000000000 ) ) ;
#54 = CIRCLE ( 'NONE', #120, 44.95000000000000300 ) ;
#55 = EDGE_LOOP ( 'NONE', ( #325 ) ) ;
#56 = EDGE_LOOP ( 'NONE', ( #34 ) ) ;
#57 = CARTESIAN_POINT ( 'NONE',  ( 0.0000000000000000000, -11.90000000000000000, 0.0000000000000000000 ) ) ;
#58 = MECHANICAL_DESIGN_GEOMETRIC_PRESENTATION_REPRESENTATION (  '', ( #356 ), #231 ) ;
#59 = FACE_OUTER_BOUND ( 'NONE', #274, .T. ) ;
#60 = FACE_BOUND ( 'NONE', #26, .T. ) ;
#61 = ORIENTED_EDGE ( 'NONE', *, *, #321, .F. ) ;
#62 = EDGE_LOOP ( 'NONE', ( #315 ) ) ;
#63 = SURFACE_SIDE_STYLE ('',( #15 ) ) ;
#64 = AXIS2_PLACEMENT_3D ( 'NONE', #171, #222, #284 ) ;
#65 = SURFACE_STYLE_USAGE ( .BOTH. , #63 ) ;
#66 = ADVANCED_FACE ( 'NONE', ( #46, #306 ), #83, .F. ) ;
#67 = FACE_BOUND ( 'NONE', #149, .T. ) ;
#68 = AXIS2_PLACEMENT_3D ( 'NONE', #50, #110, #27 ) ;
#69 = CARTESIAN_POINT ( 'NONE',  ( 0.0000000000000000000, 0.2999999999999912700, 0.0000000000000000000 ) ) ;
#70 = VERTEX_POINT ( 'NONE', #158 ) ;
#71 = CIRCLE ( 'NONE', #68, 46.69999999999999600 ) ;
#72 = CIRCLE ( 'NONE', #194, 36.60000000000000100 ) ;
#73 = ORIENTED_EDGE ( 'NONE', *, *, #200, .F. ) ;
#74 = MECHANICAL_DESIGN_GEOMETRIC_PRESENTATION_REPRESENTATION (  '', ( #313 ), #162 ) ;
#75 = FACE_OUTER_BOUND ( 'NONE', #79, .T. ) ;
#76 = CARTESIAN_POINT ( 'NONE',  ( 0.0000000000000000000, -11.90000000000000000, 0.0000000000000000000 ) ) ;
#77 = DIRECTION ( 'NONE',  ( 0.0000000000000000000, 1.000000000000000000, 0.0000000000000000000 ) ) ;
#78 = FACE_OUTER_BOUND ( 'NONE', #347, .T. ) ;
#79 = EDGE_LOOP ( 'NONE', ( #98 ) ) ;
#80 = PRODUCT_DEFINITION ( 'UNKNOWN', '', #253, #234 ) ;
#81 = CARTESIAN_POINT ( 'NONE',  ( 0.0000000000000000000, 97.22043276571055500, 0.0000000000000000000 ) ) ;
#82 = DIRECTION ( 'NONE',  ( 0.0000000000000000000, 1.000000000000000000, 0.0000000000000000000 ) ) ;
#83 = CYLINDRICAL_SURFACE ( 'NONE', #293, 36.60000000000000100 ) ;
#84 = UNCERTAINTY_MEASURE_WITH_UNIT (LENGTH_MEASURE( 1.000000000000000100E-005 ), #153, 'distance_accuracy_value', 'NONE');
#85 = SURFACE_SIDE_STYLE ('',( #215 ) ) ;
#86 = CIRCLE ( 'NONE', #170, 33.60000000000000100 ) ;
#87 = PRESENTATION_LAYER_ASSIGNMENT (  '', '', ( #313 ) ) ;
#88 = FACE_OUTER_BOUND ( 'NONE', #48, .T. ) ;
#89 = CARTESIAN_POINT ( 'NONE',  ( 0.0000000000000000000, -10.90000000000000900, 0.0000000000000000000 ) ) ;
#90 = ADVANCED_FACE ( 'NONE', ( #165, #88 ), #266, .T. ) ;
#91 =( NAMED_UNIT ( * ) SI_UNIT ( $, .STERADIAN. ) SOLID_ANGLE_UNIT ( ) );
#92 = ORIENTED_EDGE ( 'NONE', *, *, #133, .T. ) ;
#93 = CARTESIAN_POINT ( 'NONE',  ( 0.0000000000000000000, -6.189583207305960700, 47.32352941176471000 ) ) ;
#94 = CARTESIAN_POINT ( 'NONE',  ( 0.0000000000000000000, -3.011805698386599500, 0.0000000000000000000 ) ) ;
#95 = UNCERTAINTY_MEASURE_WITH_UNIT (LENGTH_MEASURE( 1.000000000000000100E-005 ), #359, 'distance_accuracy_value', 'NONE');
#96 = VERTEX_POINT ( 'NONE', #335 ) ;
#97 = EDGE_LOOP ( 'NONE', ( #282 ) ) ;
#98 = ORIENTED_EDGE ( 'NONE', *, *, #133, .F. ) ;
#99 = AXIS2_PLACEMENT_3D ( 'NONE', #69, #307, #12 ) ;
#100 = DIRECTION ( 'NONE',  ( 0.0000000000000000000, 0.0000000000000000000, 1.000000000000000000 ) ) ;
#101 = VERTEX_POINT ( 'NONE', #164 ) ;
#102 = CYLINDRICAL_SURFACE ( 'NONE', #310, 47.50000000000000000 ) ;
#103 = EDGE_LOOP ( 'NONE', ( #22 ) ) ;
#104 =( NAMED_UNIT ( * ) SI_UNIT ( $, .STERADIAN. ) SOLID_ANGLE_UNIT ( ) );
#105 = CARTESIAN_POINT ( 'NONE',  ( 0.0000000000000000000, 0.2999999999999912700, 0.0000000000000000000 ) ) ;
#106 = CARTESIAN_POINT ( 'NONE',  ( 0.0000000000000000000, -3.011805698386599500, 0.0000000000000000000 ) ) ;
#107 = CIRCLE ( 'NONE', #7, 47.50000000000000000 ) ;
#108 = ORIENTED_EDGE ( 'NONE', *, *, #38, .F. ) ;
#109 = AXIS2_PLACEMENT_3D ( 'NONE', #94, #163, #275 ) ;
#110 = DIRECTION ( 'NONE',  ( 0.0000000000000000000, 1.000000000000000000, 0.0000000000000000000 ) ) ;
#111 = EDGE_LOOP ( 'NONE', ( #329 ) ) ;
#112 = CARTESIAN_POINT ( 'NONE',  ( 0.0000000000000000000, -3.210416792694063700, 0.0000000000000000000 ) ) ;
#113 = DIRECTION ( 'NONE',  ( -0.0000000000000000000, -1.000000000000000000, -0.0000000000000000000 ) ) ;
#114 = TOROIDAL_SURFACE ( 'NONE', #173, 47.29999999999999700, 0.2000000000000043700 ) ;
#115 = ORIENTED_EDGE ( 'NONE', *, *, #176, .T. ) ;
#116 = AXIS2_PLACEMENT_3D ( 'NONE', #312, #258, #52 ) ;
#117 = CONICAL_SURFACE ( 'NONE', #373, 47.50000000000000000, 0.7853981633974492800 ) ;
#118 = EDGE_CURVE ( 'NONE', #235, #235, #16, .T. ) ;
#119 = DIRECTION ( 'NONE',  ( 0.0000000000000000000, 0.0000000000000000000, -1.000000000000000000 ) ) ;
#120 = AXIS2_PLACEMENT_3D ( 'NONE', #156, #269, #183 ) ;
#121 = ADVANCED_FACE ( 'NONE', ( #227, #305 ), #213, .F. ) ;
#122 = CARTESIAN_POINT ( 'NONE',  ( 0.0000000000000000000, -11.70000000000000800, 0.0000000000000000000 ) ) ;
#123 = ORIENTED_EDGE ( 'NONE', *, *, #9, .T. ) ;
#124 = EDGE_CURVE ( 'NONE', #25, #25, #71, .T. ) ;
#125 = CARTESIAN_POINT ( 'NONE',  ( 0.0000000000000000000, -4.400000000000010100, 35.04999999999999700 ) ) ;
#126 = APPLICATION_CONTEXT ( 'automotive_design' ) ;
#127 = DIRECTION ( 'NONE',  ( 0.0000000000000000000, 1.000000000000000000, 0.0000000000000000000 ) ) ;
#128 = FACE_OUTER_BOUND ( 'NONE', #41, .T. ) ;
#129 = ORIENTED_EDGE ( 'NONE', *, *, #17, .F. ) ;
#130 = CARTESIAN_POINT ( 'NONE',  ( 0.0000000000000000000, -4.400000000000010100, 33.60000000000000100 ) ) ;
#131 = ORIENTED_EDGE ( 'NONE', *, *, #200, .T. ) ;
#132 = PRESENTATION_LAYER_ASSIGNMENT (  '', '', ( #356 ) ) ;
#133 = EDGE_CURVE ( 'NONE', #101, #101, #361, .T. ) ;
#134 = FACE_OUTER_BOUND ( 'NONE', #372, .T. ) ;
#135 = DIRECTION ( 'NONE',  ( 0.0000000000000000000, 0.0000000000000000000, 1.000000000000000000 ) ) ;
#136 = AXIS2_PLACEMENT_3D ( 'NONE', #57, #82, #100 ) ;
#137 = CARTESIAN_POINT ( 'NONE',  ( 0.0000000000000000000, -6.300000000000014000, 0.0000000000000000000 ) ) ;
#138 = EDGE_LOOP ( 'NONE', ( #154 ) ) ;
#139 = AXIS2_PLACEMENT_3D ( 'NONE', #53, #262, #195 ) ;
#140 = ADVANCED_BREP_SHAPE_REPRESENTATION ( 'BS1ISOK6373 FULLVAC', ( #240, #326 ), #150 ) ;
#141 = CYLINDRICAL_SURFACE ( 'NONE', #99, 33.60000000000000100 ) ;
#142 = FACE_OUTER_BOUND ( 'NONE', #341, .T. ) ;
#143 = APPLICATION_CONTEXT ( 'automotive_design' ) ;
#144 = DIRECTION ( 'NONE',  ( 0.0000000000000000000, 1.000000000000000000, 0.0000000000000000000 ) ) ;
#145 = EDGE_LOOP ( 'NONE', ( #348 ) ) ;
#146 = EDGE_CURVE ( 'NONE', #263, #263, #86, .T. ) ;
#147 = VERTEX_POINT ( 'NONE', #218 ) ;
#148 = ADVANCED_FACE ( 'NONE', ( #11, #142 ), #102, .T. ) ;
#149 = EDGE_LOOP ( 'NONE', ( #252 ) ) ;
#150 =( GEOMETRIC_REPRESENTATION_CONTEXT ( 3 ) GLOBAL_UNCERTAINTY_ASSIGNED_CONTEXT ( ( #161 ) ) GLOBAL_UNIT_ASSIGNED_CONTEXT ( ( #246, #304, #104 ) ) REPRESENTATION_CONTEXT ( 'NONE', 'WORKASPACE' ) );
#151 = ADVANCED_FACE ( 'NONE', ( #277, #78 ), #172, .T. ) ;
#152 = DIRECTION ( 'NONE',  ( 0.0000000000000000000, 1.000000000000000000, 0.0000000000000000000 ) ) ;
#153 =( LENGTH_UNIT ( ) NAMED_UNIT ( * ) SI_UNIT ( .MILLI., .METRE. ) );
#154 = ORIENTED_EDGE ( 'NONE', *, *, #300, .T. ) ;
#155 = EDGE_CURVE ( 'NONE', #180, #180, #190, .T. ) ;
#156 = CARTESIAN_POINT ( 'NONE',  ( 0.0000000000000000000, -9.700000000000006400, 0.0000000000000000000 ) ) ;
#157 = CARTESIAN_POINT ( 'NONE',  ( 0.0000000000000000000, -3.011805698386599500, 47.50000000000000700 ) ) ;
#158 = CARTESIAN_POINT ( 'NONE',  ( 0.0000000000000000000, -11.70000000000000800, 44.95000000000000300 ) ) ;
#159 = DIRECTION ( 'NONE',  ( 0.0000000000000000000, 0.0000000000000000000, 1.000000000000000000 ) ) ;
#160 = ORIENTED_EDGE ( 'NONE', *, *, #155, .T. ) ;
#161 = UNCERTAINTY_MEASURE_WITH_UNIT (LENGTH_MEASURE( 1.000000000000000100E-005 ), #246, 'distance_accuracy_value', 'NONE');
#162 =( GEOMETRIC_REPRESENTATION_CONTEXT ( 3 ) GLOBAL_UNCERTAINTY_ASSIGNED_CONTEXT ( ( #95 ) ) GLOBAL_UNIT_ASSIGNED_CONTEXT ( ( #359, #295, #91 ) ) REPRESENTATION_CONTEXT ( 'NONE', 'WORKASPACE' ) );
#163 = DIRECTION ( 'NONE',  ( 0.0000000000000000000, 1.000000000000000000, 0.0000000000000000000 ) ) ;
#164 = CARTESIAN_POINT ( 'NONE',  ( 0.0000000000000000000, -3.210416792694063700, 47.32352941176471000 ) ) ;
#165 = FACE_OUTER_BOUND ( 'NONE', #138, .T. ) ;
#166 = DIRECTION ( 'NONE',  ( 0.0000000000000000000, 1.000000000000000000, 0.0000000000000000000 ) ) ;
#167 = DIRECTION ( 'NONE',  ( 0.0000000000000000000, 0.0000000000000000000, 1.000000000000000000 ) ) ;
#168 = FACE_OUTER_BOUND ( 'NONE', #286, .T. ) ;
#169 = DIRECTION ( 'NONE',  ( 0.0000000000000000000, 1.000000000000000000, 0.0000000000000000000 ) ) ;
#170 = AXIS2_PLACEMENT_3D ( 'NONE', #294, #113, #230 ) ;
#171 = CARTESIAN_POINT ( 'NONE',  ( 30.10000000000058100, -4.400000000000010100, 0.0000000000000000000 ) ) ;
#172 = PLANE ( 'NONE',  #327 ) ;
#173 = AXIS2_PLACEMENT_3D ( 'NONE', #349, #289, #229 ) ;
#174 = CIRCLE ( 'NONE', #224, 33.60000000000000100 ) ;
#175 = SURFACE_STYLE_USAGE ( .BOTH. , #85 ) ;
#176 = EDGE_CURVE ( 'NONE', #272, #272, #107, .T. ) ;
#177 = CARTESIAN_POINT ( 'NONE',  ( 0.0000000000000000000, -6.189583207305960700, 0.0000000000000000000 ) ) ;
#178 = CIRCLE ( 'NONE', #211, 35.04999999999999700 ) ;
#179 = CIRCLE ( 'NONE', #249, 36.60000000000000100 ) ;
#180 = VERTEX_POINT ( 'NONE', #221 ) ;
#181 = EDGE_LOOP ( 'NONE', ( #357 ) ) ;
#182 = ADVANCED_FACE ( 'NONE', ( #202, #49 ), #309, .T. ) ;
#183 = DIRECTION ( 'NONE',  ( 0.0000000000000000000, 0.0000000000000000000, 1.000000000000000000 ) ) ;
#184 = APPLICATION_PROTOCOL_DEFINITION ( 'draft international standard', 'automotive_design', 1998, #126 ) ;
#185 = FACE_OUTER_BOUND ( 'NONE', #111, .T. ) ;
#186 = ORIENTED_EDGE ( 'NONE', *, *, #146, .F. ) ;
#187 = AXIS2_PLACEMENT_3D ( 'NONE', #106, #260, #19 ) ;
#188 = ADVANCED_FACE ( 'NONE', ( #226, #236 ), #114, .T. ) ;
#189 = DIRECTION ( 'NONE',  ( 0.0000000000000000000, 0.0000000000000000000, 1.000000000000000000 ) ) ;
#190 = CIRCLE ( 'NONE', #290, 47.50000000000000000 ) ;
#191 = CARTESIAN_POINT ( 'NONE',  ( 0.0000000000000000000, -11.70000000000000800, 46.69999999999999600 ) ) ;
#192 = EDGE_LOOP ( 'NONE', ( #115 ) ) ;
#193 = AXIS2_PLACEMENT_3D ( 'NONE', #177, #351, #33 ) ;
#194 = AXIS2_PLACEMENT_3D ( 'NONE', #288, #51, #287 ) ;
#195 = DIRECTION ( 'NONE',  ( 0.0000000000000000000, 0.0000000000000000000, 1.000000000000000000 ) ) ;
#196 = EDGE_LOOP ( 'NONE', ( #92 ) ) ;
#197 = CARTESIAN_POINT ( 'NONE',  ( 0.0000000000000000000, -10.90000000000000900, 0.0000000000000000000 ) ) ;
#198 = TOROIDAL_SURFACE ( 'NONE', #323, 47.50000000000000000, 1.499999999999999800 ) ;
#199 = ORIENTED_EDGE ( 'NONE', *, *, #45, .F. ) ;
#200 = EDGE_CURVE ( 'NONE', #96, #96, #285, .T. ) ;
#201 = DIRECTION ( 'NONE',  ( 0.0000000000000000000, 0.0000000000000000000, 1.000000000000000000 ) ) ;
#202 = FACE_OUTER_BOUND ( 'NONE', #55, .T. ) ;
#203 = ORIENTED_EDGE ( 'NONE', *, *, #124, .T. ) ;
#204 = DIRECTION ( 'NONE',  ( 0.0000000000000000000, 1.000000000000000000, 0.0000000000000000000 ) ) ;
#205 = EDGE_CURVE ( 'NONE', #3, #3, #5, .T. ) ;
#206 = FACE_OUTER_BOUND ( 'NONE', #279, .T. ) ;
#207 = CIRCLE ( 'NONE', #139, 46.69999999999999600 ) ;
#208 = ORIENTED_EDGE ( 'NONE', *, *, #118, .T. ) ;
#209 = PRODUCT ( 'BS1ISOK6373 FULLVAC', 'BS1ISOK6373 FULLVAC', '', ( #242 ) ) ;
#210 = ADVANCED_FACE ( 'NONE', ( #273, #206 ), #352, .F. ) ;
#211 = AXIS2_PLACEMENT_3D ( 'NONE', #278, #127, #189 ) ;
#212 = CARTESIAN_POINT ( 'NONE',  ( 0.0000000000000000000, -0.5000000000000108800, 0.0000000000000000000 ) ) ;
#213 = CYLINDRICAL_SURFACE ( 'NONE', #368, 44.95000000000000300 ) ;
#214 = ADVANCED_FACE ( 'NONE', ( #128, #75 ), #198, .F. ) ;
#215 = SURFACE_STYLE_FILL_AREA ( #320 ) ;
#216 = ORIENTED_EDGE ( 'NONE', *, *, #146, .T. ) ;
#217 = AXIS2_PLACEMENT_3D ( 'NONE', #43, #311, #250 ) ;
#218 = CARTESIAN_POINT ( 'NONE',  ( 0.0000000000000000000, 0.2999999999999895000, 46.69999999999999600 ) ) ;
#219 = EDGE_LOOP ( 'NONE', ( #203 ) ) ;
#220 =( NAMED_UNIT ( * ) PLANE_ANGLE_UNIT ( ) SI_UNIT ( $, .RADIAN. ) );
#221 = CARTESIAN_POINT ( 'NONE',  ( 0.0000000000000000000, -0.5000000000000108800, 47.50000000000000000 ) ) ;
#222 = DIRECTION ( 'NONE',  ( 0.0000000000000000000, 1.000000000000000000, 0.0000000000000000000 ) ) ;
#223 = AXIS2_PLACEMENT_3D ( 'NONE', #122, #241, #159 ) ;
#224 = AXIS2_PLACEMENT_3D ( 'NONE', #261, #169, #135 ) ;
#225 = DIRECTION ( 'NONE',  ( 0.0000000000000000000, 0.0000000000000000000, 1.000000000000000000 ) ) ;
#226 = FACE_OUTER_BOUND ( 'NONE', #192, .T. ) ;
#227 = FACE_OUTER_BOUND ( 'NONE', #181, .T. ) ;
#228 = EDGE_LOOP ( 'NONE', ( #264 ) ) ;
#229 = DIRECTION ( 'NONE',  ( 0.0000000000000000000, 0.0000000000000000000, 1.000000000000000000 ) ) ;
#230 = DIRECTION ( 'NONE',  ( 0.0000000000000000000, 0.0000000000000000000, -1.000000000000000000 ) ) ;
#231 =( GEOMETRIC_REPRESENTATION_CONTEXT ( 3 ) GLOBAL_UNCERTAINTY_ASSIGNED_CONTEXT ( ( #84 ) ) GLOBAL_UNIT_ASSIGNED_CONTEXT ( ( #153, #220, #42 ) ) REPRESENTATION_CONTEXT ( 'NONE', 'WORKASPACE' ) );
#232 = VERTEX_POINT ( 'NONE', #157 ) ;
#233 = ORIENTED_EDGE ( 'NONE', *, *, #118, .F. ) ;
#234 = PRODUCT_DEFINITION_CONTEXT ( 'detailed design', #126, 'design' ) ;
#235 = VERTEX_POINT ( 'NONE', #276 ) ;
#236 = FACE_OUTER_BOUND ( 'NONE', #228, .T. ) ;
#237 = DIRECTION ( 'NONE',  ( 0.0000000000000000000, 0.0000000000000000000, 1.000000000000000000 ) ) ;
#238 = CARTESIAN_POINT ( 'NONE',  ( 44.95000000000000300, -9.700000000000006400, 0.0000000000000000000 ) ) ;
#239 = EDGE_LOOP ( 'NONE', ( #160 ) ) ;
#240 = MANIFOLD_SOLID_BREP ( 'collerette tube', #6 ) ;
#241 = DIRECTION ( 'NONE',  ( 0.0000000000000000000, 1.000000000000000000, 0.0000000000000000000 ) ) ;
#242 = PRODUCT_CONTEXT ( 'NONE', #143, 'mechanical' ) ;
#243 = ADVANCED_FACE ( 'NONE', ( #344, #60 ), #29, .T. ) ;
#244 = AXIS2_PLACEMENT_3D ( 'NONE', #112, #322, #201 ) ;
#245 = FACE_BOUND ( 'NONE', #219, .T. ) ;
#246 =( LENGTH_UNIT ( ) NAMED_UNIT ( * ) SI_UNIT ( .MILLI., .METRE. ) );
#247 = EDGE_LOOP ( 'NONE', ( #129 ) ) ;
#248 = DIRECTION ( 'NONE',  ( 0.0000000000000000000, 0.0000000000000000000, 1.000000000000000000 ) ) ;
#249 = AXIS2_PLACEMENT_3D ( 'NONE', #137, #23, #18 ) ;
#250 = DIRECTION ( 'NONE',  ( 0.0000000000000000000, 0.0000000000000000000, -1.000000000000000000 ) ) ;
#251 = VERTEX_POINT ( 'NONE', #125 ) ;
#252 = ORIENTED_EDGE ( 'NONE', *, *, #317, .T. ) ;
#253 = PRODUCT_DEFINITION_FORMATION_WITH_SPECIFIED_SOURCE ( 'ANY', '', #209, .NOT_KNOWN. ) ;
#254 = DIRECTION ( 'NONE',  ( 0.0000000000000000000, 1.000000000000000000, 0.0000000000000000000 ) ) ;
#255 = AXIS2_PLACEMENT_3D ( 'NONE', #76, #77, #225 ) ;
#256 = VERTEX_POINT ( 'NONE', #14 ) ;
#257 = CIRCLE ( 'NONE', #223, 44.95000000000000300 ) ;
#258 = DIRECTION ( 'NONE',  ( 0.0000000000000000000, 1.000000000000000000, 0.0000000000000000000 ) ) ;
#259 = FACE_BOUND ( 'NONE', #247, .T. ) ;
#260 = DIRECTION ( 'NONE',  ( 0.0000000000000000000, 1.000000000000000000, 0.0000000000000000000 ) ) ;
#261 = CARTESIAN_POINT ( 'NONE',  ( 0.0000000000000000000, -4.400000000000010100, 0.0000000000000000000 ) ) ;
#262 = DIRECTION ( 'NONE',  ( 0.0000000000000000000, 1.000000000000000000, 0.0000000000000000000 ) ) ;
#263 = VERTEX_POINT ( 'NONE', #332 ) ;
#264 = ORIENTED_EDGE ( 'NONE', *, *, #205, .F. ) ;
#265 = CARTESIAN_POINT ( 'NONE',  ( 31.96078076153821000, -6.300000000000012300, 0.0000000000000000000 ) ) ;
#266 = CYLINDRICAL_SURFACE ( 'NONE', #255, 47.50000000000000000 ) ;
#267 = EDGE_LOOP ( 'NONE', ( #199 ) ) ;
#268 = ORIENTED_EDGE ( 'NONE', *, *, #176, .F. ) ;
#269 = DIRECTION ( 'NONE',  ( 0.0000000000000000000, 1.000000000000000000, 0.0000000000000000000 ) ) ;
#270 = AXIS2_PLACEMENT_3D ( 'NONE', #197, #24, #167 ) ;
#271 = FILL_AREA_STYLE_COLOUR ( '', #20 ) ;
#272 = VERTEX_POINT ( 'NONE', #363 ) ;
#273 = FACE_OUTER_BOUND ( 'NONE', #318, .T. ) ;
#274 = EDGE_LOOP ( 'NONE', ( #233 ) ) ;
#275 = DIRECTION ( 'NONE',  ( 0.0000000000000000000, 0.0000000000000000000, 1.000000000000000000 ) ) ;
#276 = CARTESIAN_POINT ( 'NONE',  ( 0.0000000000000000000, -10.90000000000000900, 47.50000000000000000 ) ) ;
#277 = FACE_BOUND ( 'NONE', #355, .T. ) ;
#278 = CARTESIAN_POINT ( 'NONE',  ( 0.0000000000000000000, -4.400000000000010100, 0.0000000000000000000 ) ) ;
#279 = EDGE_LOOP ( 'NONE', ( #61 ) ) ;
#280 = PRODUCT_DEFINITION_SHAPE ( 'NONE', 'NONE',  #80 ) ;
#281 = DIRECTION ( 'NONE',  ( 0.0000000000000000000, 0.0000000000000000000, 1.000000000000000000 ) ) ;
#282 = ORIENTED_EDGE ( 'NONE', *, *, #38, .T. ) ;
#283 = EDGE_CURVE ( 'NONE', #256, #256, #54, .T. ) ;
#284 = DIRECTION ( 'NONE',  ( 0.0000000000000000000, -0.0000000000000000000, 1.000000000000000000 ) ) ;
#285 = CIRCLE ( 'NONE', #343, 35.04999999999999700 ) ;
#286 = EDGE_LOOP ( 'NONE', ( #216 ) ) ;
#287 = DIRECTION ( 'NONE',  ( 0.0000000000000000000, 0.0000000000000000000, -1.000000000000000000 ) ) ;
#288 = CARTESIAN_POINT ( 'NONE',  ( 0.0000000000000000000, -9.700000000000001100, 0.0000000000000000000 ) ) ;
#289 = DIRECTION ( 'NONE',  ( 0.0000000000000000000, 1.000000000000000000, 0.0000000000000000000 ) ) ;
#290 = AXIS2_PLACEMENT_3D ( 'NONE', #212, #254, #367 ) ;
#291 = CARTESIAN_POINT ( 'NONE',  ( 0.0000000000000000000, -11.90000000000000000, 0.0000000000000000000 ) ) ;
#292 = PRESENTATION_STYLE_ASSIGNMENT (( #65 ) ) ;
#293 = AXIS2_PLACEMENT_3D ( 'NONE', #81, #319, #371 ) ;
#294 = CARTESIAN_POINT ( 'NONE',  ( 0.0000000000000000000, -6.300000000000012300, 0.0000000000000000000 ) ) ;
#295 =( NAMED_UNIT ( * ) PLANE_ANGLE_UNIT ( ) SI_UNIT ( $, .RADIAN. ) );
#296 = COLOUR_RGB ( '',0.7921568627450980000, 0.8196078431372548800, 0.9333333333333333500 ) ;
#297 = ORIENTED_EDGE ( 'NONE', *, *, #205, .T. ) ;
#298 = ADVANCED_FACE ( 'NONE', ( #334, #365 ), #21, .T. ) ;
#299 = ADVANCED_FACE ( 'NONE', ( #245, #59 ), #117, .T. ) ;
#300 = EDGE_CURVE ( 'NONE', #232, #232, #30, .T. ) ;
#301 = EDGE_LOOP ( 'NONE', ( #362 ) ) ;
#302 = DIRECTION ( 'NONE',  ( 1.000000000000000000, 0.0000000000000000000, 0.0000000000000000000 ) ) ;
#303 = CARTESIAN_POINT ( 'NONE',  ( 0.0000000000000000000, -6.300000000000014000, -36.60000000000000100 ) ) ;
#304 =( NAMED_UNIT ( * ) PLANE_ANGLE_UNIT ( ) SI_UNIT ( $, .RADIAN. ) );
#305 = FACE_OUTER_BOUND ( 'NONE', #103, .T. ) ;
#306 = FACE_OUTER_BOUND ( 'NONE', #56, .T. ) ;
#307 = DIRECTION ( 'NONE',  ( -0.0000000000000000000, -1.000000000000000000, -0.0000000000000000000 ) ) ;
#308 = ORIENTED_EDGE ( 'NONE', *, *, #155, .F. ) ;
#309 = PLANE ( 'NONE',  #116 ) ;
#310 = AXIS2_PLACEMENT_3D ( 'NONE', #291, #144, #324 ) ;
#311 = DIRECTION ( 'NONE',  ( 0.0000000000000000000, -1.000000000000000000, -0.0000000000000000000 ) ) ;
#312 = CARTESIAN_POINT ( 'NONE',  ( 35.04999999999999700, 0.2999999999999899400, 0.0000000000000000000 ) ) ;
#313 = STYLED_ITEM ( 'NONE', ( #44 ), #240 ) ;
#314 = VERTEX_POINT ( 'NONE', #303 ) ;
#315 = ORIENTED_EDGE ( 'NONE', *, *, #321, .T. ) ;
#316 = FACE_OUTER_BOUND ( 'NONE', #196, .T. ) ;
#317 = EDGE_CURVE ( 'NONE', #70, #70, #257, .T. ) ;
#318 = EDGE_LOOP ( 'NONE', ( #131 ) ) ;
#319 = DIRECTION ( 'NONE',  ( -0.0000000000000000000, -1.000000000000000000, -0.0000000000000000000 ) ) ;
#320 = FILL_AREA_STYLE ('',( #32 ) ) ;
#321 = EDGE_CURVE ( 'NONE', #251, #251, #178, .T. ) ;
#322 = DIRECTION ( 'NONE',  ( 0.0000000000000000000, 1.000000000000000000, 0.0000000000000000000 ) ) ;
#323 = AXIS2_PLACEMENT_3D ( 'NONE', #353, #204, #237 ) ;
#324 = DIRECTION ( 'NONE',  ( 0.0000000000000000000, 0.0000000000000000000, 1.000000000000000000 ) ) ;
#325 = ORIENTED_EDGE ( 'NONE', *, *, #45, .T. ) ;
#326 = AXIS2_PLACEMENT_3D ( 'NONE', #364, #248, #302 ) ;
#327 = AXIS2_PLACEMENT_3D ( 'NONE', #265, #374, #119 ) ;
#328 = VERTEX_POINT ( 'NONE', #130 ) ;
#329 = ORIENTED_EDGE ( 'NONE', *, *, #124, .F. ) ;
#330 = DIRECTION ( 'NONE',  ( -0.0000000000000000000, -1.000000000000000000, -0.0000000000000000000 ) ) ;
#331 = AXIS2_PLACEMENT_3D ( 'NONE', #238, #39, #354 ) ;
#332 = CARTESIAN_POINT ( 'NONE',  ( 0.0000000000000000000, -6.300000000000012300, -33.60000000000000100 ) ) ;
#333 = VERTEX_POINT ( 'NONE', #47 ) ;
#334 = FACE_OUTER_BOUND ( 'NONE', #239, .T. ) ;
#335 = CARTESIAN_POINT ( 'NONE',  ( 0.0000000000000000000, 0.2999999999999912700, 35.04999999999999700 ) ) ;
#336 = FACE_OUTER_BOUND ( 'NONE', #62, .T. ) ;
#337 = ADVANCED_FACE ( 'NONE', ( #134, #168 ), #141, .F. ) ;
#338 = CARTESIAN_POINT ( 'NONE',  ( 0.0000000000000000000, -6.388194301613416400, 0.0000000000000000000 ) ) ;
#339 = AXIS2_PLACEMENT_3D ( 'NONE', #28, #330, #40 ) ;
#340 = PLANE ( 'NONE',  #217 ) ;
#341 = EDGE_LOOP ( 'NONE', ( #268 ) ) ;
#342 = CARTESIAN_POINT ( 'NONE',  ( 0.0000000000000000000, -11.90000000000000000, 0.0000000000000000000 ) ) ;
#343 = AXIS2_PLACEMENT_3D ( 'NONE', #105, #4, #2 ) ;
#344 = FACE_OUTER_BOUND ( 'NONE', #301, .T. ) ;
#345 = EDGE_LOOP ( 'NONE', ( #208 ) ) ;
#346 = PLANE ( 'NONE',  #64 ) ;
#347 = EDGE_LOOP ( 'NONE', ( #108 ) ) ;
#348 = ORIENTED_EDGE ( 'NONE', *, *, #300, .F. ) ;
#349 = CARTESIAN_POINT ( 'NONE',  ( 0.0000000000000000000, -6.388194301613416400, 0.0000000000000000000 ) ) ;
#350 = PRODUCT_RELATED_PRODUCT_CATEGORY ( 'part', '', ( #209 ) ) ;
#351 = DIRECTION ( 'NONE',  ( 0.0000000000000000000, 1.000000000000000000, 0.0000000000000000000 ) ) ;
#352 = CYLINDRICAL_SURFACE ( 'NONE', #136, 35.04999999999999700 ) ;
#353 = CARTESIAN_POINT ( 'NONE',  ( 0.0000000000000000000, -4.700000000000008200, 0.0000000000000000000 ) ) ;
#354 = DIRECTION ( 'NONE',  ( 0.0000000000000000000, 0.0000000000000000000, -1.000000000000000000 ) ) ;
#355 = EDGE_LOOP ( 'NONE', ( #186 ) ) ;
#356 = STYLED_ITEM ( 'NONE', ( #292 ), #140 ) ;
#357 = ORIENTED_EDGE ( 'NONE', *, *, #283, .T. ) ;
#358 = ADVANCED_FACE ( 'NONE', ( #67, #185 ), #340, .T. ) ;
#359 =( LENGTH_UNIT ( ) NAMED_UNIT ( * ) SI_UNIT ( .MILLI., .METRE. ) );
#360 = SHAPE_DEFINITION_REPRESENTATION ( #280, #140 ) ;
#361 = CIRCLE ( 'NONE', #244, 47.32352941176471000 ) ;
#362 = ORIENTED_EDGE ( 'NONE', *, *, #283, .F. ) ;
#363 = CARTESIAN_POINT ( 'NONE',  ( 0.0000000000000000000, -6.388194301613416400, 47.50000000000000000 ) ) ;
#364 = CARTESIAN_POINT ( 'NONE',  ( 0.0000000000000000000, 0.0000000000000000000, 0.0000000000000000000 ) ) ;
#365 = FACE_BOUND ( 'NONE', #267, .T. ) ;
#366 = ORIENTED_EDGE ( 'NONE', *, *, #17, .T. ) ;
#367 = DIRECTION ( 'NONE',  ( 0.0000000000000000000, 0.0000000000000000000, 1.000000000000000000 ) ) ;
#368 = AXIS2_PLACEMENT_3D ( 'NONE', #342, #166, #369 ) ;
#369 = DIRECTION ( 'NONE',  ( 0.0000000000000000000, 0.0000000000000000000, 1.000000000000000000 ) ) ;
#370 = FACE_OUTER_BOUND ( 'NONE', #145, .T. ) ;
#371 = DIRECTION ( 'NONE',  ( 0.0000000000000000000, 0.0000000000000000000, -1.000000000000000000 ) ) ;
#372 = EDGE_LOOP ( 'NONE', ( #366 ) ) ;
#373 = AXIS2_PLACEMENT_3D ( 'NONE', #89, #152, #8 ) ;
#374 = DIRECTION ( 'NONE',  ( 0.0000000000000000000, -1.000000000000000000, -0.0000000000000000000 ) ) ;
ENDSEC;
END-ISO-10303-21;
